ISO-10303-21;
HEADER;
/* Generated by software containing ST-Developer
 * from STEP Tools, Inc. (www.steptools.com) 
 */

FILE_DESCRIPTION(
/* description */ (''),
/* implementation_level */ '2;1');

FILE_NAME(
/* name */ 'Piston-Socket-30-12.step',
/* time_stamp */ '2024-10-17T08:26:54+02:00',
/* author */ (''),
/* organization */ (''),
/* preprocessor_version */ 'ST-DEVELOPER v20',
/* originating_system */ 'Autodesk Translation Framework v13.20.0.188',

/* authorisation */ '');

FILE_SCHEMA (('AUTOMOTIVE_DESIGN { 1 0 10303 214 3 1 1 }'));
ENDSEC;

DATA;
#10=MECHANICAL_DESIGN_GEOMETRIC_PRESENTATION_REPRESENTATION('',(#13),#265);
#11=SHAPE_REPRESENTATION_RELATIONSHIP('SRR','None',#272,#12);
#12=ADVANCED_BREP_SHAPE_REPRESENTATION('',(#14),#264);
#13=STYLED_ITEM('',(#281),#14);
#14=MANIFOLD_SOLID_BREP('Piston-Socket',#149);
#15=FACE_BOUND('',#42,.T.);
#16=CYLINDRICAL_SURFACE('',#171,14.85);
#17=CYLINDRICAL_SURFACE('',#175,25.);
#18=CIRCLE('',#167,25.);
#19=CIRCLE('',#168,25.);
#20=CIRCLE('',#170,25.);
#21=CIRCLE('',#172,14.85);
#22=CIRCLE('',#173,14.85);
#23=CIRCLE('',#176,25.);
#24=FACE_OUTER_BOUND('',#33,.T.);
#25=FACE_OUTER_BOUND('',#34,.T.);
#26=FACE_OUTER_BOUND('',#35,.T.);
#27=FACE_OUTER_BOUND('',#36,.T.);
#28=FACE_OUTER_BOUND('',#37,.T.);
#29=FACE_OUTER_BOUND('',#38,.T.);
#30=FACE_OUTER_BOUND('',#39,.T.);
#31=FACE_OUTER_BOUND('',#40,.T.);
#32=FACE_OUTER_BOUND('',#41,.T.);
#33=EDGE_LOOP('',(#97,#98,#99,#100));
#34=EDGE_LOOP('',(#101,#102,#103,#104));
#35=EDGE_LOOP('',(#105,#106,#107,#108));
#36=EDGE_LOOP('',(#109,#110,#111,#112,#113));
#37=EDGE_LOOP('',(#114,#115,#116,#117));
#38=EDGE_LOOP('',(#118,#119,#120,#121));
#39=EDGE_LOOP('',(#122));
#40=EDGE_LOOP('',(#123,#124,#125,#126,#127,#128,#129,#130));
#41=EDGE_LOOP('',(#131));
#42=EDGE_LOOP('',(#132));
#43=LINE('',#226,#55);
#44=LINE('',#228,#56);
#45=LINE('',#230,#57);
#46=LINE('',#231,#58);
#47=LINE('',#235,#59);
#48=LINE('',#236,#60);
#49=LINE('',#237,#61);
#50=LINE('',#241,#62);
#51=LINE('',#242,#63);
#52=LINE('',#243,#64);
#53=LINE('',#254,#65);
#54=LINE('',#260,#66);
#55=VECTOR('',#182,10.);
#56=VECTOR('',#183,10.);
#57=VECTOR('',#184,10.);
#58=VECTOR('',#185,10.);
#59=VECTOR('',#188,10.);
#60=VECTOR('',#189,10.);
#61=VECTOR('',#190,10.);
#62=VECTOR('',#193,10.);
#63=VECTOR('',#194,10.);
#64=VECTOR('',#195,10.);
#65=VECTOR('',#210,14.85);
#66=VECTOR('',#219,25.);
#67=VERTEX_POINT('',#224);
#68=VERTEX_POINT('',#225);
#69=VERTEX_POINT('',#227);
#70=VERTEX_POINT('',#229);
#71=VERTEX_POINT('',#233);
#72=VERTEX_POINT('',#234);
#73=VERTEX_POINT('',#239);
#74=VERTEX_POINT('',#240);
#75=VERTEX_POINT('',#245);
#76=VERTEX_POINT('',#251);
#77=VERTEX_POINT('',#253);
#78=VERTEX_POINT('',#258);
#79=EDGE_CURVE('',#67,#68,#43,.T.);
#80=EDGE_CURVE('',#67,#69,#44,.T.);
#81=EDGE_CURVE('',#69,#70,#45,.T.);
#82=EDGE_CURVE('',#68,#70,#46,.T.);
#83=EDGE_CURVE('',#71,#72,#47,.T.);
#84=EDGE_CURVE('',#71,#69,#48,.T.);
#85=EDGE_CURVE('',#72,#67,#49,.T.);
#86=EDGE_CURVE('',#73,#74,#50,.T.);
#87=EDGE_CURVE('',#68,#73,#51,.T.);
#88=EDGE_CURVE('',#70,#74,#52,.T.);
#89=EDGE_CURVE('',#74,#75,#18,.T.);
#90=EDGE_CURVE('',#75,#71,#19,.T.);
#91=EDGE_CURVE('',#72,#73,#20,.T.);
#92=EDGE_CURVE('',#76,#76,#21,.T.);
#93=EDGE_CURVE('',#76,#77,#53,.T.);
#94=EDGE_CURVE('',#77,#77,#22,.T.);
#95=EDGE_CURVE('',#78,#78,#23,.T.);
#96=EDGE_CURVE('',#78,#75,#54,.T.);
#97=ORIENTED_EDGE('',*,*,#79,.F.);
#98=ORIENTED_EDGE('',*,*,#80,.T.);
#99=ORIENTED_EDGE('',*,*,#81,.T.);
#100=ORIENTED_EDGE('',*,*,#82,.F.);
#101=ORIENTED_EDGE('',*,*,#83,.F.);
#102=ORIENTED_EDGE('',*,*,#84,.T.);
#103=ORIENTED_EDGE('',*,*,#80,.F.);
#104=ORIENTED_EDGE('',*,*,#85,.F.);
#105=ORIENTED_EDGE('',*,*,#86,.F.);
#106=ORIENTED_EDGE('',*,*,#87,.F.);
#107=ORIENTED_EDGE('',*,*,#82,.T.);
#108=ORIENTED_EDGE('',*,*,#88,.T.);
#109=ORIENTED_EDGE('',*,*,#89,.F.);
#110=ORIENTED_EDGE('',*,*,#88,.F.);
#111=ORIENTED_EDGE('',*,*,#81,.F.);
#112=ORIENTED_EDGE('',*,*,#84,.F.);
#113=ORIENTED_EDGE('',*,*,#90,.F.);
#114=ORIENTED_EDGE('',*,*,#85,.T.);
#115=ORIENTED_EDGE('',*,*,#79,.T.);
#116=ORIENTED_EDGE('',*,*,#87,.T.);
#117=ORIENTED_EDGE('',*,*,#91,.F.);
#118=ORIENTED_EDGE('',*,*,#92,.F.);
#119=ORIENTED_EDGE('',*,*,#93,.T.);
#120=ORIENTED_EDGE('',*,*,#94,.T.);
#121=ORIENTED_EDGE('',*,*,#93,.F.);
#122=ORIENTED_EDGE('',*,*,#94,.F.);
#123=ORIENTED_EDGE('',*,*,#95,.F.);
#124=ORIENTED_EDGE('',*,*,#96,.T.);
#125=ORIENTED_EDGE('',*,*,#90,.T.);
#126=ORIENTED_EDGE('',*,*,#83,.T.);
#127=ORIENTED_EDGE('',*,*,#91,.T.);
#128=ORIENTED_EDGE('',*,*,#86,.T.);
#129=ORIENTED_EDGE('',*,*,#89,.T.);
#130=ORIENTED_EDGE('',*,*,#96,.F.);
#131=ORIENTED_EDGE('',*,*,#95,.T.);
#132=ORIENTED_EDGE('',*,*,#92,.T.);
#133=PLANE('',#163);
#134=PLANE('',#164);
#135=PLANE('',#165);
#136=PLANE('',#166);
#137=PLANE('',#169);
#138=PLANE('',#174);
#139=PLANE('',#177);
#140=ADVANCED_FACE('',(#24),#133,.F.);
#141=ADVANCED_FACE('',(#25),#134,.F.);
#142=ADVANCED_FACE('',(#26),#135,.F.);
#143=ADVANCED_FACE('',(#27),#136,.F.);
#144=ADVANCED_FACE('',(#28),#137,.F.);
#145=ADVANCED_FACE('',(#29),#16,.F.);
#146=ADVANCED_FACE('',(#30),#138,.T.);
#147=ADVANCED_FACE('',(#31),#17,.T.);
#148=ADVANCED_FACE('',(#32,#15),#139,.T.);
#149=CLOSED_SHELL('',(#140,#141,#142,#143,#144,#145,#146,#147,#148));
#150=DERIVED_UNIT_ELEMENT(#152,1.);
#151=DERIVED_UNIT_ELEMENT(#267,-3.);
#152=(
MASS_UNIT()
NAMED_UNIT(*)
SI_UNIT(.KILO.,.GRAM.)
);
#153=DERIVED_UNIT((#150,#151));
#154=MEASURE_REPRESENTATION_ITEM('density measure',
POSITIVE_RATIO_MEASURE(7850.),#153);
#155=PROPERTY_DEFINITION_REPRESENTATION(#160,#157);
#156=PROPERTY_DEFINITION_REPRESENTATION(#161,#158);
#157=REPRESENTATION('material name',(#159),#264);
#158=REPRESENTATION('density',(#154),#264);
#159=DESCRIPTIVE_REPRESENTATION_ITEM('Steel','Steel');
#160=PROPERTY_DEFINITION('material property','material name',#274);
#161=PROPERTY_DEFINITION('material property','density of part',#274);
#162=AXIS2_PLACEMENT_3D('',#222,#178,#179);
#163=AXIS2_PLACEMENT_3D('',#223,#180,#181);
#164=AXIS2_PLACEMENT_3D('',#232,#186,#187);
#165=AXIS2_PLACEMENT_3D('',#238,#191,#192);
#166=AXIS2_PLACEMENT_3D('',#244,#196,#197);
#167=AXIS2_PLACEMENT_3D('',#246,#198,#199);
#168=AXIS2_PLACEMENT_3D('',#247,#200,#201);
#169=AXIS2_PLACEMENT_3D('',#248,#202,#203);
#170=AXIS2_PLACEMENT_3D('',#249,#204,#205);
#171=AXIS2_PLACEMENT_3D('',#250,#206,#207);
#172=AXIS2_PLACEMENT_3D('',#252,#208,#209);
#173=AXIS2_PLACEMENT_3D('',#255,#211,#212);
#174=AXIS2_PLACEMENT_3D('',#256,#213,#214);
#175=AXIS2_PLACEMENT_3D('',#257,#215,#216);
#176=AXIS2_PLACEMENT_3D('',#259,#217,#218);
#177=AXIS2_PLACEMENT_3D('',#261,#220,#221);
#178=DIRECTION('axis',(0.,0.,1.));
#179=DIRECTION('refdir',(1.,0.,0.));
#180=DIRECTION('center_axis',(1.,0.,0.));
#181=DIRECTION('ref_axis',(0.,0.,-1.));
#182=DIRECTION('',(0.,0.,-1.));
#183=DIRECTION('',(0.,1.,0.));
#184=DIRECTION('',(0.,0.,-1.));
#185=DIRECTION('',(0.,1.,0.));
#186=DIRECTION('center_axis',(0.,0.,1.));
#187=DIRECTION('ref_axis',(1.,0.,0.));
#188=DIRECTION('',(0.,-1.,0.));
#189=DIRECTION('',(1.,0.,0.));
#190=DIRECTION('',(1.,0.,0.));
#191=DIRECTION('center_axis',(0.,0.,-1.));
#192=DIRECTION('ref_axis',(-1.,0.,0.));
#193=DIRECTION('',(0.,1.,0.));
#194=DIRECTION('',(-1.,0.,0.));
#195=DIRECTION('',(-1.,0.,0.));
#196=DIRECTION('center_axis',(0.,1.,0.));
#197=DIRECTION('ref_axis',(0.,0.,1.));
#198=DIRECTION('center_axis',(0.,1.,0.));
#199=DIRECTION('ref_axis',(1.,0.,0.));
#200=DIRECTION('center_axis',(0.,1.,0.));
#201=DIRECTION('ref_axis',(1.,0.,0.));
#202=DIRECTION('center_axis',(0.,1.,0.));
#203=DIRECTION('ref_axis',(1.,0.,0.));
#204=DIRECTION('center_axis',(0.,1.,0.));
#205=DIRECTION('ref_axis',(1.,0.,0.));
#206=DIRECTION('center_axis',(0.,-1.,0.));
#207=DIRECTION('ref_axis',(-1.,0.,0.));
#208=DIRECTION('center_axis',(0.,-1.,0.));
#209=DIRECTION('ref_axis',(-1.,0.,0.));
#210=DIRECTION('',(0.,-1.,0.));
#211=DIRECTION('center_axis',(0.,-1.,0.));
#212=DIRECTION('ref_axis',(-1.,0.,0.));
#213=DIRECTION('center_axis',(0.,1.,0.));
#214=DIRECTION('ref_axis',(-1.,0.,0.));
#215=DIRECTION('center_axis',(0.,1.,0.));
#216=DIRECTION('ref_axis',(1.,0.,0.));
#217=DIRECTION('center_axis',(0.,1.,0.));
#218=DIRECTION('ref_axis',(1.,0.,0.));
#219=DIRECTION('',(0.,-1.,0.));
#220=DIRECTION('center_axis',(0.,1.,0.));
#221=DIRECTION('ref_axis',(1.,0.,0.));
#222=CARTESIAN_POINT('',(0.,0.,0.));
#223=CARTESIAN_POINT('Origin',(-59.3206366648123,0.,40.8804706924283));
#224=CARTESIAN_POINT('',(-59.3206366648123,0.,40.8804706924283));
#225=CARTESIAN_POINT('',(-59.3206366648123,0.,30.6804706924284));
#226=CARTESIAN_POINT('',(-59.3206366648123,0.,38.3304706924283));
#227=CARTESIAN_POINT('',(-59.3206366648123,18.,40.8804706924283));
#228=CARTESIAN_POINT('',(-59.3206366648123,0.,40.8804706924283));
#229=CARTESIAN_POINT('',(-59.3206366648123,18.,30.6804706924284));
#230=CARTESIAN_POINT('',(-59.3206366648123,18.,30.6804706924284));
#231=CARTESIAN_POINT('',(-59.3206366648123,0.,30.6804706924284));
#232=CARTESIAN_POINT('Origin',(-113.105497869032,0.,40.8804706924283));
#233=CARTESIAN_POINT('',(-97.7949088705389,18.,40.8804706924283));
#234=CARTESIAN_POINT('',(-97.7949088705389,0.,40.8804706924283));
#235=CARTESIAN_POINT('',(-97.7949088705389,0.,40.8804706924283));
#236=CARTESIAN_POINT('',(-59.3206366648123,18.,40.8804706924283));
#237=CARTESIAN_POINT('',(-93.2130672669223,0.,40.8804706924283));
#238=CARTESIAN_POINT('Origin',(-59.3206366648123,0.,30.6804706924284));
#239=CARTESIAN_POINT('',(-97.7949088705389,0.,30.6804706924284));
#240=CARTESIAN_POINT('',(-97.7949088705389,18.,30.6804706924284));
#241=CARTESIAN_POINT('',(-97.7949088705389,0.,30.6804706924284));
#242=CARTESIAN_POINT('',(-66.3206366648123,0.,30.6804706924284));
#243=CARTESIAN_POINT('',(-76.8024714052012,18.,30.6804706924284));
#244=CARTESIAN_POINT('Origin',(-86.2130672669223,18.,35.7804706924284));
#245=CARTESIAN_POINT('',(-98.3206366648123,18.,35.7804706924284));
#246=CARTESIAN_POINT('Origin',(-73.3206366648123,18.,35.7804706924284));
#247=CARTESIAN_POINT('Origin',(-73.3206366648123,18.,35.7804706924284));
#248=CARTESIAN_POINT('Origin',(-73.3206366648123,0.,35.7804706924284));
#249=CARTESIAN_POINT('Origin',(-73.3206366648123,0.,35.7804706924284));
#250=CARTESIAN_POINT('Origin',(-73.3206366648123,41.,35.7804706924284));
#251=CARTESIAN_POINT('',(-58.4706366648123,41.,35.7804706924284));
#252=CARTESIAN_POINT('Origin',(-73.3206366648123,41.,35.7804706924284));
#253=CARTESIAN_POINT('',(-58.4706366648123,21.,35.7804706924284));
#254=CARTESIAN_POINT('',(-58.4706366648123,41.,35.7804706924284));
#255=CARTESIAN_POINT('Origin',(-73.3206366648123,21.,35.7804706924284));
#256=CARTESIAN_POINT('Origin',(-73.3206366648123,21.,35.7804706924284));
#257=CARTESIAN_POINT('Origin',(-73.3206366648123,0.,35.7804706924284));
#258=CARTESIAN_POINT('',(-98.3206366648123,41.,35.7804706924284));
#259=CARTESIAN_POINT('Origin',(-73.3206366648123,41.,35.7804706924284));
#260=CARTESIAN_POINT('',(-98.3206366648123,0.,35.7804706924284));
#261=CARTESIAN_POINT('Origin',(-73.3206366648123,41.,35.7804706924284));
#262=UNCERTAINTY_MEASURE_WITH_UNIT(LENGTH_MEASURE(0.01),#266,
'DISTANCE_ACCURACY_VALUE',
'Maximum model space distance between geometric entities at asserted c
onnectivities');
#263=UNCERTAINTY_MEASURE_WITH_UNIT(LENGTH_MEASURE(0.01),#266,
'DISTANCE_ACCURACY_VALUE',
'Maximum model space distance between geometric entities at asserted c
onnectivities');
#264=(
GEOMETRIC_REPRESENTATION_CONTEXT(3)
GLOBAL_UNCERTAINTY_ASSIGNED_CONTEXT((#262))
GLOBAL_UNIT_ASSIGNED_CONTEXT((#266,#268,#269))
REPRESENTATION_CONTEXT('','3D')
);
#265=(
GEOMETRIC_REPRESENTATION_CONTEXT(3)
GLOBAL_UNCERTAINTY_ASSIGNED_CONTEXT((#263))
GLOBAL_UNIT_ASSIGNED_CONTEXT((#266,#268,#269))
REPRESENTATION_CONTEXT('','3D')
);
#266=(
LENGTH_UNIT()
NAMED_UNIT(*)
SI_UNIT(.MILLI.,.METRE.)
);
#267=(
LENGTH_UNIT()
NAMED_UNIT(*)
SI_UNIT($,.METRE.)
);
#268=(
NAMED_UNIT(*)
PLANE_ANGLE_UNIT()
SI_UNIT($,.RADIAN.)
);
#269=(
NAMED_UNIT(*)
SI_UNIT($,.STERADIAN.)
SOLID_ANGLE_UNIT()
);
#270=SHAPE_DEFINITION_REPRESENTATION(#271,#272);
#271=PRODUCT_DEFINITION_SHAPE('',$,#274);
#272=SHAPE_REPRESENTATION('',(#162),#264);
#273=PRODUCT_DEFINITION_CONTEXT('part definition',#278,'design');
#274=PRODUCT_DEFINITION('Piston-Socket','Piston-Socket',#275,#273);
#275=PRODUCT_DEFINITION_FORMATION('',$,#280);
#276=PRODUCT_RELATED_PRODUCT_CATEGORY('Piston-Socket','Piston-Socket',(#280));
#277=APPLICATION_PROTOCOL_DEFINITION('international standard',
'automotive_design',2009,#278);
#278=APPLICATION_CONTEXT(
'Core Data for Automotive Mechanical Design Process');
#279=PRODUCT_CONTEXT('part definition',#278,'mechanical');
#280=PRODUCT('Piston-Socket','Piston-Socket',$,(#279));
#281=PRESENTATION_STYLE_ASSIGNMENT((#282));
#282=SURFACE_STYLE_USAGE(.BOTH.,#283);
#283=SURFACE_SIDE_STYLE('',(#284));
#284=SURFACE_STYLE_FILL_AREA(#285);
#285=FILL_AREA_STYLE('Steel - Satin',(#286));
#286=FILL_AREA_STYLE_COLOUR('Steel - Satin',#287);
#287=COLOUR_RGB('Steel - Satin',0.627450980392157,0.627450980392157,0.627450980392157);
ENDSEC;
END-ISO-10303-21;
